Brand of skin
(on New Folk Implosion album)

Capo on 3rd fret

Intro riff:
-------0---------------------------------
---------------3--------------------3-2--
----2-------0-------2-4-6-4-2-----0------
--2--2----0--0-----2------------0--0-----
-0---------------0-----------------------
---------3--------------------3----------

A5                       G
what brand of skin do you occupy?
who is that smile on your face
where is the hole for the sands of time
smiling leaving lines upon my face

intro riff
oh no

did the comfort kill the curiosity?
safety fail to engage
said i was empty why you shaking me
are you too angry to be saved

Chorus riff:
----------------------------------------------------------------
---------3-2-----------3-2----------3-2-------------------------
---2-0-0---------2-0-0--------2-0-0-----------------------------
-2-------------2------------2-----------------------------------
-0-------------0------------0-----------------------------------
------------------------------------------0--0--3--3--5--0-3-5--
oh no

what brand of skin do you occupy?
what is left of us now
in the end let the money decide
get too deep we may drown

harmony's gone the rhythm remains
harmony's gone but the rhythm remains

Define chords:


Back to the home page