Jack O'Lantern
(on The Unexamined Life LP)

Capo on 2nd fret

Intro riff:
----------------------------------------------------------------------
---3----3----3---5----5---5---7----7----7---8----8----8---5--7--5--7--
----2----2--------2----2-------7----7--------7----7------------------- 
-0----0----0---0----0----0--0----0----0---0----0----0-----------------
----------------------------------------------------------------------
----------------------------------------------------------------------

--3--5----0--5----0--5-----------2--5----2--5----0--5--------
--3--3----3--3----3--3-----------3--3----3--3----3--3--------
--2--2----2--2----0--0-----------2--2----2--2----0--0--------
--0--0----0--0----0--0-----------0--0----0--0----0--0--------
------------------0--0---------------------------0--0--------
------------------3--3---------------------------3--3--------

-5--3--2--3-2-0-2--0---0---0---5-----0-2-3-5-3-2-3---5-5-3--2--3-2-0-2--0---0---0---5------0-2-3-5-3-2-3--
---------------------3-----3---3---3--------------------------------------3-----3---3---3-----------------
---------------------------0---0------------------------------------------------0---0---------------------
---------------------------0---0------------------------------------------------0---0---------------------
---------------------------0---0------------------------------------------------0---0---------------------
---------------------------3---3------------------------------------------------3---3---------------------

D                                                  G                                      
you brought your pumpkin and i didn't do nothing it was probably something like a sarcastic simili
and you brought your costume like some medieval space ????? so fucked ??????? i worried to school

Em        G
mother lying
what am i doing
standing here feeling 
A         Asus4        Asus4+         Asus4++
so ??????????????????????
 
you swore ???????????? so i ???????? you a grudge forever ???????????????????? i am not away
you want to build me a pleasure ????????? house ??????????????????????? bone i remember when 

Two tangled voices spoken-word part

D                                    G
like a Jack O'Lantern Jack O'Lantern like a Jack O'Lantern Jack O'Lantern

Em          G
i     pass 
??????  the night smile
it's been a long long while
yes i believe it's time 
the season's mine
Jack O'Lantern burning in your eyes

Define chords:
Asus4+=002250
Asus4++=0099100

Sorry for the lyrix (unofficial and unfinalized transcription!!!) 
Feel free to contribute