Kath
(on III album)

After several months of intensive research... An acceptable transcription for this bloody verse riff...
If you find a much better way to play this section, tell me!

Capo on 1st fret

Intro riff:
-----------------------------------------0-1--3------0-1--3--
----------------------8---8--5---5---1-3-----1----1-3----1---
------0-----------------0------0-----------------------------
--2----2---4-4-4-2-------------------------------------------
---3---------------3-----------------------------------------
-------------------------------------------------------------

Verse riff:
----------------------------------------------------------------------------------------------------------------------------
-1--1--1--1------5--5--5--5----7--7--7--7----8--8--8--8-------9--9--9--9----13---13---13---13---13---13---13---13---13---13-
-0--0--0--0------0--0--0--0----0--0--0--0----0--0--0--0-------0--0--0--0----12---12---12---12---12---12---12---12---12---12-
-2--2--2--2------X--X--X--X----X--X--X--X----X--X--X--X-------X--X--X--X----------------------------------------------------
-3--3--3--3------5--5--5--5----5--5--5--5----5--5--5--5-------5--5--5--5----------------------------------------------------
----------------------------------------------------------------------------------------------------------------------------
i'm so glad i waited for this, every nervous moment worth it, every anxious wave rode through to find me lying safe with you

Intro riff (once again)

C
all too right
Dm               F                                 C
righteous coward chicken head waiting for a storm in paradise
C
push wine push to gripe to hurt me
Dm                    F                      C
we killed the jealous we killed the judgment right

Only the end of the intro riff:
-----0-1--3------0-1--3--
-1-3-----1----1-3----1---
-------------------------
-------------------------
-------------------------
-------------------------

C                         Fm
i'm so glad the wait is through
i'm so glad i waited for you

Define chords:


Back to the home page