Losercore
(on Losercore 7")

Tune down one half tone (EbAbDbGbBbEb)

First riff:
 A            C  D  A   A            C  D  A
----------------------------------------------
----------------------------------------------
-2--0-------------------2--0------------------
------0--2----------2--------0--2----------2--
-----------0--3--5----------------0--3--5-----
----------------------------------------------

A5               C   Dsus2
downstroking nevermind
give this stroke down half your time
give this loser half-control
downstroke it gives no soul

Second riff:
-------------------------------------------
-------------------------------------------
------------2--0-----------------2--0------
----------2------0--2----------2------0--2-
-0--3--5--------------0--3--5--------------
-------------------------------------------

A5                 C    Dsus2
forget your paranoid reason
to judge my true intention
i gave up the fight
i'll only leave you behind
 
Am barre      Em barre  D barre
losercore 
it's what i've waited for
losercore 
it's what i'm waiting for
losercore pulling the downstroke trick
losercore shaking for downstroke fix

Second riff

all you righteous cripples
spoiled rotten refuse to grow
forgotten you're useless stoned
wait for time time to rise finally recognize

losercore 
it's what i've waited for
losercore 
it's what i'm waiting for

Define chords:


Back to the home page