Masher
(on Full force Galesburg album)

Define verse riff:
 D            Asus4 A
-2----0--2--3--0----0--
-3----3--3--3--3----2--
-2----2--2--2--2----2--
-0----0--0--0--2----2--
-----------------------
-----------------------

Define chorus riff:
 F#m     G       D/G Asus4 A+
--9------3--3--2--2----X---0--
-10------3--------3----3---5--
-11------0--------0----2---6--
-11------0--------0----2---7--
--9------2--------X--------7--
--9------3--------3-----------

D                     Asus4  A
most of the brine has got to boil away
most of the air has got to choke you
most of june i spent in jail again
i don't mean jail exactly

F#m                   G    D/G     Asus4        A+
up in the pine tree a red squirrel looked down at me

D                Asus4 A
i am losing control 
of the language again
i am losing control 
of the language again

D                    Asus4    A
most of the things i used to hold on to
most of the things i used to say to you
most of the ways i knew around the local roads
G                Asus4
are disappearing daily

high in the cottonwood you were looking down at me and you sure looked good
your hair hanging down in the leaves your neck tilted back to make a rainbow

i was losing control 
of the language again
i am losing control 
of the language again

Define chords:


Back to the home page