Natural one
(on Kids soundtrack)

Capo on 2nd fret for the album version
Tune wherever you want for acoustic live versions

Define intro riff:
-------------------------------------------
------------------------------------3---3--
------------------------------------0---X--
----2-0--------------------2-0------0---2--
--------2------0-1-0-----------2----0---0--
-0--------0--3-------3--0--------0--3---0--

Define "2nd riff":
-3--5--6--5-5--7--5-5--8--
--------------------------
--------------------------
--------------------------
--------------------------
--------------------------

Em                                                     G     D/Asus4
i'm the one natural one make it easy we could take it inside
where i could love how i like if i want it whatever keeps me high
yeah we can take it            good and loose on an endless spree
Em
good because we made it
G                                    Dsus2                               Em +2nd riff
and when mamma's not around there's no telling what we'll do when we're free

i'm the one natural one make it easy we could take it inside
i can have it cos i act like i love it it's a matter of pride
yeah we can take it        a good excuse for an endless spree
good because we made it
the world is falling down and it may as well crash with me

when I'm numb natural one it's the one natural one there's no telling what we'll do when we're free
when I'm numb number one it's the one natural one there's no telling what we'll do when we're free

PS: for the actual bass line, play it with a guitar downtuned one tone reffering to the guitar that plays the chords (ie in this case standard tuning) 
and play the intro riff that way:
--------------------------------------------
--------------------------------------------
--------------------------------------------
---4-2--------2-3-2-------4-2---------------
-------4----------------------4-------------
-2-------2--5-------5--2--------5--4--0--2--

Define chords:


Back to the home page