Sweet angel
(on B4 we go under album)

Capo on 3rd fret

Define 1st intro riff:
     Dsus2
-------0------------------0--
-------3------------------3--
-------2----4--2----0--2--2--
-------0----------4-------0--
-----------------------------
-2-3-------------------------

Define 2nd intro riff:
     Dsus2
-------0-------------------0--
-------3-------------------3--
-------2----4--2--------2--2--
-------0----------4--2-----0--
------------------------------
-2-3--------------------------

Define verse pattern:
1st intro riff played three times
then 2nd riff for the fourth verse line

in your eyes there's something that i know
that will take me where i wanna go
it's a place i wander from my past
there are times ??????? leave me alone

G      Asus4
sweet angel
fly to me
i've got to
find out now

in your ?????????? something that i like
even time ????????????????? would be right
you don't show all the feelings that you have
and i know why you hide ??????? away

sweet angel
fly to me
i've got to
find out now

Dm    Dsus4 Dm Dsus4 Asus4
Dm    Dsus4 Dm Dsus4 Asus4

if your trees are calling out your name
and the ??????????? with your pain
there's a chance you could ????????
but the trees won't get you what you are

sweet angel
fly to me
i've got to
find out now

sweet angel
fly to me
i've got to
find out now

Define chords:


Back to the home page