Shroudlike remains
(on Workingman's dick CD)

Capo on 1st fret

Define arpeggios:
Am               G               FM7
-----------------------------------0-----0-----0---
---1-----1-----1---3-----3-----3-------------------
-----2-----2---------2-----2---------2-----2-----2-
---------------------------------------------------
-0-----0-----0-------------------3-----3-----------
-----------------3-----3-----3---------------3-----

Em          D/F#         FM7
--------------------------0-------
-----0-0--------3-3-------1-------
----0----0-----2---2------2-------
---2------2---0-----0-----3-------
--2----------0------------3-------
-0----------2-------------0-------

Am                          G               FM7
You expect me to be here for ever but i haven't got a clue
Em                               D/F#         FM7
You looked at me and i looked at you what can i do?

You only thought of me when you were feelin' so bad
You thought that i had something but that was more than you had more than you had 
more than you had more than you had more than you had more than you had

and when you see me now will you only see pain
what would you expect from the shroudlike remains

Define chords:


Sorry for the lyrix (unofficial and unfinalized transcription!!!)
it's incredibly hard for a French guy to pick up these lyrics sung as whispers
Feel free to contribute