The one

Capo on 2nd fret

Intro riff:
-3--3--3-2----0-----------------------3--
-0----------3---3--1-1--0--1--0-------0--
-0------------------------------2--0--0--
-0------------------------------------0--
-2------------------------------------2--
-3------------------------------------3--

G                         C              D            G
who would have i known? a flower doesn't bloom on its own
i'm trying to try i watered the flower ?????
and when you were kind you bored me out of my mind
and when i was distant you came in an instant

C          D          G
still i wanna be the one
C               D           G
i wanna be the one that you call
C               D       G         C      end of chorus riff
i wanna be the one you fell and you fall for

i'm no longer clever i'm muffin blind
and i'm growing meaner but not all the time
good things you've said are ringing in my head
give me the strength to get up get out get into

how i wanna be the one
i wanna be the one that you call
i wanna be the one you fell and you fall for

yes i wanna be the one you fell and you fall for

End of chorus riff:
------------------------------
-1-------------------------2--
-0-------------------------0--
-2-------------------------0--
-3--3--2--0----------0--2--2--
------------3--2--3--------3--

Define chords:

Sorry for the lyrix (unofficial and unfinalized transcription!!!) Italic words may be wrong
Feel free to contribute

Back to the home page